0
SECTION
2
HEADER
9
$INSUNITS
70
4
9
$ACADVER
1
AC1014
9
$HANDSEED
5
FFFF
0
ENDSEC
0
SECTION
2
TABLES
0
TABLE
2
VPORT
5
8
100
AcDbSymbolTable
0
ENDTAB
0
TABLE
2
LTYPE
5
5
100
AcDbSymbolTable
0
LTYPE
5
14
100
AcDbSymbolTableRecord
100
AcDbLinetypeTableRecord
2
BYBLOCK
70
0
0
LTYPE
5
15
100
AcDbSymbolTableRecord
100
AcDbLinetypeTableRecord
2
BYLAYER
70
0
0
ENDTAB
0
TABLE
2
LAYER
5
2
100
AcDbSymbolTable
70
2
0
LAYER
5
50
100
AcDbSymbolTableRecord
100
AcDbLayerTableRecord
2
0
70
0
6
CONTINUOUS
0
ENDTAB
0
TABLE
2
STYLE
5
3
100
AcDbSymbolTable
70
1
0
STYLE
5
11
100
AcDbSymbolTableRecord
100
AcDbTextStyleTableRecord
2
STANDARD
70
0
0
ENDTAB
0
TABLE
2
VIEW
5
6
100
AcDbSymbolTable
70
0
0
ENDTAB
0
TABLE
2
UCS
5
7
100
AcDbSymbolTable
70
0
0
ENDTAB
0
TABLE
2
APPID
5
9
100
AcDbSymbolTable
70
2
0
APPID
5
12
100
AcDbSymbolTableRecord
100
AcDbRegAppTableRecord
2
ACAD
70
0
0
ENDTAB
0
TABLE
2
DIMSTYLE
5
A
100
AcDbSymbolTable
70
1
0
ENDTAB
0
TABLE
2
BLOCK_RECORD
5
1
100
AcDbSymbolTable
70
1
0
BLOCK_RECORD
5
1F
100
AcDbSymbolTableRecord
100
AcDbBlockTableRecord
2
*MODEL_SPACE
0
BLOCK_RECORD
5
1B
100
AcDbSymbolTableRecord
100
AcDbBlockTableRecord
2
*PAPER_SPACE
0
ENDTAB
0
ENDSEC
0
SECTION
2
BLOCKS
0
BLOCK
5
20
100
AcDbEntity
100
AcDbBlockBegin
2
*MODEL_SPACE
0
ENDBLK
5
21
100
AcDbEntity
100
AcDbBlockEnd
0
BLOCK
5
1C
100
AcDbEntity
100
AcDbBlockBegin
2
*PAPER_SPACE
0
ENDBLK
5
1D
100
AcDbEntity
100
AcDbBlockEnd
0
ENDSEC
0
SECTION
2
ENTITIES
0
LINE
5
100
100
AcDbEntity
8
0
100
AcDbLine
10
0
20
0
30
0
11
46.000000000000007
21
0
31
0
0
LINE
5
101
100
AcDbEntity
8
0
100
AcDbLine
10
46.000000000000007
20
0
30
0
11
46.000000000000007
21
-4
31
0
0
LINE
5
102
100
AcDbEntity
8
0
100
AcDbLine
10
46.000000000000007
20
-4
30
0
11
96.000000000000014
21
-4
31
0
0
LINE
5
103
100
AcDbEntity
8
0
100
AcDbLine
10
96.000000000000014
20
-4
30
0
11
96.000000000000014
21
0
31
0
0
LINE
5
104
100
AcDbEntity
8
0
100
AcDbLine
10
96.000000000000014
20
0
30
0
11
142.00000000000003
21
0
31
0
0
LINE
5
105
100
AcDbEntity
8
0
100
AcDbLine
10
142.00000000000003
20
0
30
0
11
142.00000000000003
21
29.950000000000003
31
0
0
LINE
5
106
100
AcDbEntity
8
0
100
AcDbLine
10
142.00000000000003
20
29.950000000000003
30
0
11
146.00000000000003
21
29.950000000000003
31
0
0
LINE
5
107
100
AcDbEntity
8
0
100
AcDbLine
10
146.00000000000003
20
29.950000000000003
30
0
11
146.00000000000003
21
60.050000000000011
31
0
0
LINE
5
108
100
AcDbEntity
8
0
100
AcDbLine
10
146.00000000000003
20
60.050000000000011
30
0
11
142.00000000000003
21
60.050000000000011
31
0
0
LINE
5
109
100
AcDbEntity
8
0
100
AcDbLine
10
142.00000000000003
20
60.050000000000011
30
0
11
142.00000000000003
21
89.950000000000017
31
0
0
LINE
5
110
100
AcDbEntity
8
0
100
AcDbLine
10
142.00000000000003
20
89.950000000000017
30
0
11
146.00000000000003
21
89.950000000000017
31
0
0
LINE
5
111
100
AcDbEntity
8
0
100
AcDbLine
10
146.00000000000003
20
89.950000000000017
30
0
11
146.00000000000003
21
120.05000000000001
31
0
0
LINE
5
112
100
AcDbEntity
8
0
100
AcDbLine
10
146.00000000000003
20
120.05000000000001
30
0
11
142.00000000000003
21
120.05000000000001
31
0
0
LINE
5
113
100
AcDbEntity
8
0
100
AcDbLine
10
142.00000000000003
20
120.05000000000001
30
0
11
142.00000000000003
21
150
31
0
0
LINE
5
114
100
AcDbEntity
8
0
100
AcDbLine
10
0
20
60.050000000000011
30
0
11
0
21
89.950000000000017
31
0
0
LINE
5
115
100
AcDbEntity
8
0
100
AcDbLine
10
0
20
89.950000000000017
30
0
11
-4.0000000000000036
21
89.950000000000017
31
0
0
LINE
5
116
100
AcDbEntity
8
0
100
AcDbLine
10
-4.0000000000000036
20
89.950000000000017
30
0
11
-4.0000000000000036
21
120.05000000000001
31
0
0
LINE
5
117
100
AcDbEntity
8
0
100
AcDbLine
10
-4.0000000000000036
20
120.05000000000001
30
0
11
0
21
120.05000000000001
31
0
0
LINE
5
118
100
AcDbEntity
8
0
100
AcDbLine
10
0
20
29.95000000000001
30
0
11
-4.0000000000000036
21
29.95000000000001
31
0
0
LINE
5
119
100
AcDbEntity
8
0
100
AcDbLine
10
-4.0000000000000036
20
60.050000000000011
30
0
11
0
21
60.050000000000011
31
0
0
LINE
5
120
100
AcDbEntity
8
0
100
AcDbLine
10
-4.0000000000000036
20
29.95000000000001
30
0
11
-4.0000000000000036
21
60.050000000000011
31
0
0
LINE
5
121
100
AcDbEntity
8
0
100
AcDbLine
10
0
20
0
30
0
11
0
21
29.95000000000001
31
0
0
LINE
5
122
100
AcDbEntity
8
0
100
AcDbLine
10
0
20
120.05000000000001
30
0
11
0
21
150
31
0
0
LINE
5
123
100
AcDbEntity
8
0
100
AcDbLine
10
142.00000000000003
20
150
30
0
11
92.000000000000028
21
150
31
0
0
LINE
5
124
100
AcDbEntity
8
0
100
AcDbLine
10
92.000000000000028
20
150
30
0
11
92.000000000000028
21
154
31
0
0
LINE
5
125
100
AcDbEntity
8
0
100
AcDbLine
10
92.000000000000028
20
154
30
0
11
42.000000000000028
21
154
31
0
0
LINE
5
126
100
AcDbEntity
8
0
100
AcDbLine
10
42.000000000000028
20
154
30
0
11
42.000000000000028
21
150
31
0
0
LINE
5
127
100
AcDbEntity
8
0
100
AcDbLine
10
42.000000000000028
20
150
30
0
11
0
21
150
31
0
0
ENDSEC
0
SECTION
2
OBJECTS
0
DICTIONARY
5
C
100
AcDbDictionary
3
ACAD_GROUP
350
D
3
ACAD_MLINESTYLE
350
17
0
DICTIONARY
5
D
100
AcDbDictionary
0
DICTIONARY
5
1A
330
C
100
AcDbDictionary
0
DICTIONARY
5
17
100
AcDbDictionary
0
ENDSEC
0
EOF
